ISO-10303-21;
HEADER;
/* Generated by software containing ST-Developer
 * from STEP Tools, Inc. (www.steptools.com) 
 */

FILE_DESCRIPTION(
/* description */ (
'\X2\041F043E0432043E0440043E0442\X0\ 90 \X2\043304400430043404430441043E0432\X0\ 
\X2\04380437\X0\ \X2\043E04460438043D043A043E04320430043D043D043E0439\X0\ 
\X2\044104420430043B0438\X0\ \X2\0413041E04240420041E041C041004220418041A\X0\'),

/* implementation_level */ '2;1');

FILE_NAME(
/* name */ '',
/* time_stamp */ '2025-06-26T10:28:12+07:00',
/* author */ ('zeta-72'),
/* organization */ ('\X2\0410041E\X0\ "\X2\0417042D04220410\X0\"'),
/* preprocessor_version */ 'ST-DEVELOPER v19.2',
/* originating_system */ 'Autodesk Inventor 2024',
/* authorisation */ '');

FILE_SCHEMA (('AUTOMOTIVE_DESIGN { 1 0 10303 214 3 1 1 }'));
ENDSEC;

DATA;
#10=MECHANICAL_DESIGN_GEOMETRIC_PRESENTATION_REPRESENTATION('',(#13),#256);
#11=SHAPE_REPRESENTATION_RELATIONSHIP('SRR','None',#263,#12);
#12=ADVANCED_BREP_SHAPE_REPRESENTATION('',(#14),#255);
#13=STYLED_ITEM('',(#272),#14);
#14=MANIFOLD_SOLID_BREP('\X2\04220432043504400434043E0435\X0\ \X2\04420435043B043E\X0\3',
#129);
#15=FACE_BOUND('',#36,.T.);
#16=FACE_BOUND('',#38,.T.);
#17=PLANE('',#170);
#18=PLANE('',#171);
#19=TOROIDAL_SURFACE('',#156,62.5,11.3);
#20=TOROIDAL_SURFACE('',#165,62.5,12.5);
#21=FACE_OUTER_BOUND('',#29,.T.);
#22=FACE_OUTER_BOUND('',#30,.T.);
#23=FACE_OUTER_BOUND('',#31,.T.);
#24=FACE_OUTER_BOUND('',#32,.T.);
#25=FACE_OUTER_BOUND('',#33,.T.);
#26=FACE_OUTER_BOUND('',#34,.T.);
#27=FACE_OUTER_BOUND('',#35,.T.);
#28=FACE_OUTER_BOUND('',#37,.T.);
#29=EDGE_LOOP('',(#85,#86,#87,#88,#89));
#30=EDGE_LOOP('',(#90,#91,#92,#93,#94,#95));
#31=EDGE_LOOP('',(#96,#97,#98,#99,#100));
#32=EDGE_LOOP('',(#101,#102,#103,#104));
#33=EDGE_LOOP('',(#105,#106,#107,#108));
#34=EDGE_LOOP('',(#109,#110,#111,#112));
#35=EDGE_LOOP('',(#113));
#36=EDGE_LOOP('',(#114));
#37=EDGE_LOOP('',(#115));
#38=EDGE_LOOP('',(#116));
#39=LINE('',#224,#43);
#40=LINE('',#236,#44);
#41=LINE('',#241,#45);
#42=LINE('',#249,#46);
#43=VECTOR('',#178,11.3);
#44=VECTOR('',#195,11.3);
#45=VECTOR('',#200,12.5);
#46=VECTOR('',#211,12.5);
#47=CIRCLE('',#153,11.3);
#48=CIRCLE('',#154,11.3);
#49=CIRCLE('',#155,11.3);
#50=CIRCLE('',#157,11.3);
#51=CIRCLE('',#158,11.3);
#52=CIRCLE('',#159,51.2);
#53=CIRCLE('',#161,11.3);
#54=CIRCLE('',#163,12.5);
#55=CIRCLE('',#164,12.5);
#56=CIRCLE('',#166,50.);
#57=CIRCLE('',#167,12.5);
#58=CIRCLE('',#169,12.5);
#59=VERTEX_POINT('',#220);
#60=VERTEX_POINT('',#221);
#61=VERTEX_POINT('',#223);
#62=VERTEX_POINT('',#228);
#63=VERTEX_POINT('',#229);
#64=VERTEX_POINT('',#234);
#65=VERTEX_POINT('',#238);
#66=VERTEX_POINT('',#240);
#67=VERTEX_POINT('',#244);
#68=VERTEX_POINT('',#248);
#69=EDGE_CURVE('',#59,#60,#47,.T.);
#70=EDGE_CURVE('',#59,#61,#39,.T.);
#71=EDGE_CURVE('',#61,#61,#48,.T.);
#72=EDGE_CURVE('',#60,#59,#49,.T.);
#73=EDGE_CURVE('',#62,#63,#50,.T.);
#74=EDGE_CURVE('',#63,#62,#51,.T.);
#75=EDGE_CURVE('',#63,#60,#52,.T.);
#76=EDGE_CURVE('',#64,#64,#53,.T.);
#77=EDGE_CURVE('',#64,#62,#40,.T.);
#78=EDGE_CURVE('',#65,#65,#54,.T.);
#79=EDGE_CURVE('',#65,#66,#41,.T.);
#80=EDGE_CURVE('',#66,#66,#55,.T.);
#81=EDGE_CURVE('',#66,#67,#56,.T.);
#82=EDGE_CURVE('',#67,#67,#57,.T.);
#83=EDGE_CURVE('',#67,#68,#42,.T.);
#84=EDGE_CURVE('',#68,#68,#58,.T.);
#85=ORIENTED_EDGE('',*,*,#69,.F.);
#86=ORIENTED_EDGE('',*,*,#70,.T.);
#87=ORIENTED_EDGE('',*,*,#71,.F.);
#88=ORIENTED_EDGE('',*,*,#70,.F.);
#89=ORIENTED_EDGE('',*,*,#72,.F.);
#90=ORIENTED_EDGE('',*,*,#73,.F.);
#91=ORIENTED_EDGE('',*,*,#74,.F.);
#92=ORIENTED_EDGE('',*,*,#75,.T.);
#93=ORIENTED_EDGE('',*,*,#72,.T.);
#94=ORIENTED_EDGE('',*,*,#69,.T.);
#95=ORIENTED_EDGE('',*,*,#75,.F.);
#96=ORIENTED_EDGE('',*,*,#76,.F.);
#97=ORIENTED_EDGE('',*,*,#77,.T.);
#98=ORIENTED_EDGE('',*,*,#73,.T.);
#99=ORIENTED_EDGE('',*,*,#74,.T.);
#100=ORIENTED_EDGE('',*,*,#77,.F.);
#101=ORIENTED_EDGE('',*,*,#78,.F.);
#102=ORIENTED_EDGE('',*,*,#79,.T.);
#103=ORIENTED_EDGE('',*,*,#80,.T.);
#104=ORIENTED_EDGE('',*,*,#79,.F.);
#105=ORIENTED_EDGE('',*,*,#80,.F.);
#106=ORIENTED_EDGE('',*,*,#81,.T.);
#107=ORIENTED_EDGE('',*,*,#82,.T.);
#108=ORIENTED_EDGE('',*,*,#81,.F.);
#109=ORIENTED_EDGE('',*,*,#82,.F.);
#110=ORIENTED_EDGE('',*,*,#83,.T.);
#111=ORIENTED_EDGE('',*,*,#84,.T.);
#112=ORIENTED_EDGE('',*,*,#83,.F.);
#113=ORIENTED_EDGE('',*,*,#78,.T.);
#114=ORIENTED_EDGE('',*,*,#71,.T.);
#115=ORIENTED_EDGE('',*,*,#84,.F.);
#116=ORIENTED_EDGE('',*,*,#76,.T.);
#117=CYLINDRICAL_SURFACE('',#152,11.3);
#118=CYLINDRICAL_SURFACE('',#160,11.3);
#119=CYLINDRICAL_SURFACE('',#162,12.5);
#120=CYLINDRICAL_SURFACE('',#168,12.5);
#121=ADVANCED_FACE('',(#21),#117,.F.);
#122=ADVANCED_FACE('',(#22),#19,.F.);
#123=ADVANCED_FACE('',(#23),#118,.F.);
#124=ADVANCED_FACE('',(#24),#119,.T.);
#125=ADVANCED_FACE('',(#25),#20,.T.);
#126=ADVANCED_FACE('',(#26),#120,.T.);
#127=ADVANCED_FACE('',(#27,#15),#17,.T.);
#128=ADVANCED_FACE('',(#28,#16),#18,.F.);
#129=CLOSED_SHELL('',(#121,#122,#123,#124,#125,#126,#127,#128));
#130=DERIVED_UNIT_ELEMENT(#133,1.);
#131=DERIVED_UNIT_ELEMENT(#258,-3.);
#132=DIMENSIONAL_EXPONENTS(0.,1.,0.,0.,0.,0.,0.);
#133=(
CONVERSION_BASED_UNIT('gram',#135)
MASS_UNIT()
NAMED_UNIT(#132)
);
#134=(
MASS_UNIT()
NAMED_UNIT(*)
SI_UNIT(.KILO.,.GRAM.)
);
#135=MASS_MEASURE_WITH_UNIT(MASS_MEASURE(0.001),#134);
#136=DERIVED_UNIT((#130,#131));
#137=MEASURE_REPRESENTATION_ITEM('density measure',
POSITIVE_RATIO_MEASURE(7.85),#136);
#138=PROPERTY_DEFINITION_REPRESENTATION(#143,#140);
#139=PROPERTY_DEFINITION_REPRESENTATION(#144,#141);
#140=REPRESENTATION('material name',(#142),#255);
#141=REPRESENTATION('density',(#137),#255);
#142=DESCRIPTIVE_REPRESENTATION_ITEM('\X2\042104420430043B044C\X0\',
'\X2\042104420430043B044C\X0\');
#143=PROPERTY_DEFINITION('material property','material name',#265);
#144=PROPERTY_DEFINITION('material property','density of part',#265);
#145=DATE_TIME_ROLE('creation_date');
#146=APPLIED_DATE_AND_TIME_ASSIGNMENT(#147,#145,(#265));
#147=DATE_AND_TIME(#148,#149);
#148=CALENDAR_DATE(2025,21,1);
#149=LOCAL_TIME(0,0,0.,#150);
#150=COORDINATED_UNIVERSAL_TIME_OFFSET(0,0,.BEHIND.);
#151=AXIS2_PLACEMENT_3D('',#218,#172,#173);
#152=AXIS2_PLACEMENT_3D('',#219,#174,#175);
#153=AXIS2_PLACEMENT_3D('',#222,#176,#177);
#154=AXIS2_PLACEMENT_3D('',#225,#179,#180);
#155=AXIS2_PLACEMENT_3D('',#226,#181,#182);
#156=AXIS2_PLACEMENT_3D('',#227,#183,#184);
#157=AXIS2_PLACEMENT_3D('',#230,#185,#186);
#158=AXIS2_PLACEMENT_3D('',#231,#187,#188);
#159=AXIS2_PLACEMENT_3D('',#232,#189,#190);
#160=AXIS2_PLACEMENT_3D('',#233,#191,#192);
#161=AXIS2_PLACEMENT_3D('',#235,#193,#194);
#162=AXIS2_PLACEMENT_3D('',#237,#196,#197);
#163=AXIS2_PLACEMENT_3D('',#239,#198,#199);
#164=AXIS2_PLACEMENT_3D('',#242,#201,#202);
#165=AXIS2_PLACEMENT_3D('',#243,#203,#204);
#166=AXIS2_PLACEMENT_3D('',#245,#205,#206);
#167=AXIS2_PLACEMENT_3D('',#246,#207,#208);
#168=AXIS2_PLACEMENT_3D('',#247,#209,#210);
#169=AXIS2_PLACEMENT_3D('',#250,#212,#213);
#170=AXIS2_PLACEMENT_3D('',#251,#214,#215);
#171=AXIS2_PLACEMENT_3D('',#252,#216,#217);
#172=DIRECTION('axis',(0.,0.,1.));
#173=DIRECTION('refdir',(1.,0.,0.));
#174=DIRECTION('center_axis',(1.,0.,0.));
#175=DIRECTION('ref_axis',(0.,-1.,0.));
#176=DIRECTION('center_axis',(1.,6.12323399573677E-17,0.));
#177=DIRECTION('ref_axis',(6.12323399573677E-17,-1.,0.));
#178=DIRECTION('',(1.,0.,0.));
#179=DIRECTION('center_axis',(-1.,-6.12323399573677E-17,0.));
#180=DIRECTION('ref_axis',(0.,-1.,0.));
#181=DIRECTION('center_axis',(1.,6.12323399573677E-17,0.));
#182=DIRECTION('ref_axis',(6.12323399573677E-17,-1.,0.));
#183=DIRECTION('center_axis',(0.,0.,-1.));
#184=DIRECTION('ref_axis',(-1.,0.,0.));
#185=DIRECTION('center_axis',(0.,1.,0.));
#186=DIRECTION('ref_axis',(1.,0.,0.));
#187=DIRECTION('center_axis',(0.,1.,0.));
#188=DIRECTION('ref_axis',(1.,0.,0.));
#189=DIRECTION('center_axis',(0.,0.,-1.));
#190=DIRECTION('ref_axis',(-1.,0.,0.));
#191=DIRECTION('center_axis',(0.,1.,0.));
#192=DIRECTION('ref_axis',(1.,0.,0.));
#193=DIRECTION('center_axis',(0.,1.,0.));
#194=DIRECTION('ref_axis',(1.,0.,0.));
#195=DIRECTION('',(0.,1.,0.));
#196=DIRECTION('center_axis',(1.,0.,0.));
#197=DIRECTION('ref_axis',(0.,1.,0.));
#198=DIRECTION('center_axis',(1.,6.12323399573677E-17,0.));
#199=DIRECTION('ref_axis',(-6.12323399573677E-17,1.,0.));
#200=DIRECTION('',(-1.,0.,0.));
#201=DIRECTION('center_axis',(1.,6.12323399573677E-17,0.));
#202=DIRECTION('ref_axis',(-6.12323399573677E-17,1.,0.));
#203=DIRECTION('center_axis',(0.,0.,-1.));
#204=DIRECTION('ref_axis',(-1.,0.,0.));
#205=DIRECTION('center_axis',(0.,0.,1.));
#206=DIRECTION('ref_axis',(-1.,0.,0.));
#207=DIRECTION('center_axis',(0.,1.,0.));
#208=DIRECTION('ref_axis',(-1.,0.,0.));
#209=DIRECTION('center_axis',(0.,1.,0.));
#210=DIRECTION('ref_axis',(-1.,0.,0.));
#211=DIRECTION('',(0.,-1.,0.));
#212=DIRECTION('center_axis',(0.,1.,0.));
#213=DIRECTION('ref_axis',(-1.,0.,0.));
#214=DIRECTION('center_axis',(1.,6.12323399573677E-17,0.));
#215=DIRECTION('ref_axis',(0.,0.,1.));
#216=DIRECTION('center_axis',(0.,1.,0.));
#217=DIRECTION('ref_axis',(0.,0.,1.));
#218=CARTESIAN_POINT('',(0.,0.,0.));
#219=CARTESIAN_POINT('Origin',(62.5,170.8,0.));
#220=CARTESIAN_POINT('',(62.5,182.1,1.38385088303651E-15));
#221=CARTESIAN_POINT('',(62.5,159.5,1.38385088303651E-15));
#222=CARTESIAN_POINT('Origin',(62.5,170.8,0.));
#223=CARTESIAN_POINT('',(170.8,182.1,1.38385088303651E-15));
#224=CARTESIAN_POINT('',(62.5,182.1,1.38385088303651E-15));
#225=CARTESIAN_POINT('Origin',(170.8,170.8,0.));
#226=CARTESIAN_POINT('Origin',(62.5,170.8,0.));
#227=CARTESIAN_POINT('Origin',(62.5,108.3,0.));
#228=CARTESIAN_POINT('',(-11.3,108.3,1.38385088303651E-15));
#229=CARTESIAN_POINT('',(11.3,108.3,1.38385088303651E-15));
#230=CARTESIAN_POINT('Origin',(0.,108.3,0.));
#231=CARTESIAN_POINT('Origin',(0.,108.3,0.));
#232=CARTESIAN_POINT('Origin',(62.5,108.3,1.38385088303651E-15));
#233=CARTESIAN_POINT('Origin',(0.,0.,0.));
#234=CARTESIAN_POINT('',(-11.3,0.,1.38385088303651E-15));
#235=CARTESIAN_POINT('Origin',(0.,0.,0.));
#236=CARTESIAN_POINT('',(-11.3,0.,1.38385088303651E-15));
#237=CARTESIAN_POINT('Origin',(62.5,170.8,0.));
#238=CARTESIAN_POINT('',(170.8,158.3,-1.53080849893419E-15));
#239=CARTESIAN_POINT('Origin',(170.8,170.8,0.));
#240=CARTESIAN_POINT('',(62.5,158.3,-1.53080849893419E-15));
#241=CARTESIAN_POINT('',(62.5,158.3,-1.53080849893419E-15));
#242=CARTESIAN_POINT('Origin',(62.5,170.8,0.));
#243=CARTESIAN_POINT('Origin',(62.5,108.3,0.));
#244=CARTESIAN_POINT('',(12.5,108.3,1.53080849893419E-15));
#245=CARTESIAN_POINT('Origin',(62.5,108.3,1.53080849893419E-15));
#246=CARTESIAN_POINT('Origin',(0.,108.3,0.));
#247=CARTESIAN_POINT('Origin',(0.,0.,0.));
#248=CARTESIAN_POINT('',(12.5,0.,-1.53080849893419E-15));
#249=CARTESIAN_POINT('',(12.5,0.,-1.53080849893419E-15));
#250=CARTESIAN_POINT('Origin',(0.,0.,0.));
#251=CARTESIAN_POINT('Origin',(170.8,170.8,0.));
#252=CARTESIAN_POINT('Origin',(0.,0.,0.));
#253=UNCERTAINTY_MEASURE_WITH_UNIT(LENGTH_MEASURE(0.01),#257,
'DISTANCE_ACCURACY_VALUE',
'Maximum model space distance between geometric entities at asserted c
onnectivities');
#254=UNCERTAINTY_MEASURE_WITH_UNIT(LENGTH_MEASURE(0.01),#257,
'DISTANCE_ACCURACY_VALUE',
'Maximum model space distance between geometric entities at asserted c
onnectivities');
#255=(
GEOMETRIC_REPRESENTATION_CONTEXT(3)
GLOBAL_UNCERTAINTY_ASSIGNED_CONTEXT((#253))
GLOBAL_UNIT_ASSIGNED_CONTEXT((#257,#259,#260))
REPRESENTATION_CONTEXT('','3D')
);
#256=(
GEOMETRIC_REPRESENTATION_CONTEXT(3)
GLOBAL_UNCERTAINTY_ASSIGNED_CONTEXT((#254))
GLOBAL_UNIT_ASSIGNED_CONTEXT((#257,#259,#260))
REPRESENTATION_CONTEXT('','3D')
);
#257=(
LENGTH_UNIT()
NAMED_UNIT(*)
SI_UNIT(.MILLI.,.METRE.)
);
#258=(
LENGTH_UNIT()
NAMED_UNIT(*)
SI_UNIT(.CENTI.,.METRE.)
);
#259=(
NAMED_UNIT(*)
PLANE_ANGLE_UNIT()
SI_UNIT($,.RADIAN.)
);
#260=(
NAMED_UNIT(*)
SI_UNIT($,.STERADIAN.)
SOLID_ANGLE_UNIT()
);
#261=SHAPE_DEFINITION_REPRESENTATION(#262,#263);
#262=PRODUCT_DEFINITION_SHAPE('',$,#265);
#263=SHAPE_REPRESENTATION('',(#151),#255);
#264=PRODUCT_DEFINITION_CONTEXT('part definition',#269,'design');
#265=PRODUCT_DEFINITION('\X2\0417042D04220410\X0\.109.200.001-02',
'\X2\0417042D04220410\X0\.109.200.001 \X2\041F043E0432043E0440043E0442\X0\ 
90 \X2\041E0426\X0\',#266,#264);
#266=PRODUCT_DEFINITION_FORMATION('',$,#271);
#267=PRODUCT_RELATED_PRODUCT_CATEGORY(
'\X2\0417042D04220410\X0\.109.200.001 \X2\041F043E0432043E0440043E0442\X0\ 
90 \X2\041E0426\X0\','\X2\0417042D04220410\X0\.109.200.001 \X2\041F043E0432043E0440043E0442\X0\ 
90 \X2\041E0426\X0\',(#271));
#268=APPLICATION_PROTOCOL_DEFINITION('international standard',
'automotive_design',2009,#269);
#269=APPLICATION_CONTEXT(
'Core Data for Automotive Mechanical Design Process');
#270=PRODUCT_CONTEXT('part definition',#269,'mechanical');
#271=PRODUCT('\X2\0417042D04220410\X0\.109.200.001-02',
'\X2\0417042D04220410\X0\.109.200.001 \X2\041F043E0432043E0440043E0442\X0\ 
90 \X2\041E0426\X0\',
'\X2\041F043E0432043E0440043E0442\X0\ 90 \X2\043304400430043404430441043E0432\X0\ 
\X2\04380437\X0\ \X2\043E04460438043D043A043E04320430043D043D043E0439\X0\ 
\X2\044104420430043B0438\X0\ \X2\0413041E04240420041E041C041004220418041A\X0\',
(#270));
#272=PRESENTATION_STYLE_ASSIGNMENT((#273));
#273=SURFACE_STYLE_USAGE(.BOTH.,#276);
#274=SURFACE_STYLE_RENDERING_WITH_PROPERTIES($,#280,(#275));
#275=SURFACE_STYLE_TRANSPARENT(0.);
#276=SURFACE_SIDE_STYLE('',(#277,#274));
#277=SURFACE_STYLE_FILL_AREA(#278);
#278=FILL_AREA_STYLE('',(#279));
#279=FILL_AREA_STYLE_COLOUR('',#280);
#280=COLOUR_RGB('',0.745098039215686,0.737254901960784,0.729411764705882);
ENDSEC;
END-ISO-10303-21;
